Видеоуроки

Гитара. Все для начинающих и продвинутых гитаристов.

Тексты песен и аккорды

1 вариант исполнения:

2 вариант исполнения:

Em    D     Am
Я три года в общаге,
Em    D     Am
Я в ней ем и в ней сплю,
Em    D     Am
Я дружу в ней с друзьями
C   D             Am
И с девчонкой мучу...

Em    D        Am
Могут выселить, гады!...
Em    D       Am
Комендант у нас - зверь,
Em     D       Am
Каждый день то засада,
C        D       C D
То потеря потерь...

Припев:

C
Шняга шняжная - жизнь общажная,
Em
Беспонтовая, но кайфовая.
C Em
Ууууу...
C
Жизнь общажная, алкогольная...
Em
Так-то шняжная, но прикольная.
C Em
Ууууу...

Вступление:

Em D Am
E|------------0-2----------|-------------------|
H|---------0-------3-------|--------0р1--------|
G|------0-------------2----|-----2-------------| 3 Раза
D|-----------------------0-|---2---------------|
A|-------------------------|0------------------|
E|---0---------------------|-------------------|

C D
E|-----------0-----|----------2p3--------------|
H|---------1---1---|-------3-------------------|
G|------0--------0-|----2----------------------| 1 Раз
D|----2------------|-0-------------------------|
A|--3--------------|---------------------------|
E|-----------------|---------------------------|

Бой:

V**V *^^V ^V V^

V - Вниз
^ - Вверх
* - Мальенькая Пауза
** - Пауза Чуть Больше

Играется в такой последовательности:
V**V *^^V ^VV^ V**V *^^V^VV^

Добавить комментарий


Защитный код
Обновить

Опрос

Ваш любимый жанр музыки?

Великолепные десятки

Проголосуйте

Вы умеете играть на гитаре?

dmoz Яндекс.Метрика