Тексты песен и аккорды

Гитара. Все для начинающих и продвинутых гитаристов.

Тексты песен и аккорды

 

Intro:
Dm               Am                   C                 G
e|------8---7--8--|--------------------|-----------------|-------------------|
B|--6-------------|--5----5---8--5-----|--5---5---8---5--|----------------5--|
G|----------------|-----------------7--|-----------------|--7-----5----7-----|
Dm               Am                   C                 G                   Am
e|------8---7--8--|--------------------|-----------------|-------------------|-----|
B|--6-------------|--5----5---8--5-----|--5---5---8---5--|--------5----------|-----|
G|----------------|-----------------7--|-----------------|--7----------7--5--|-----|
D|----------------|--------------------|-----------------|-------------------|--7--|
Verse:
Dm
Осталось никаких сомнений
C
Похоже счастлив я
Esus4 E
И не слегка
Am               Dm
Чтобы в таком хорошем настроении
C
И голова легка
Esus4 E
Хоть ночь и коротка
Chorus:
Dm                  Am
Все это ты! И ты - не привидение:
C           G
Фантастика, фантастика!
Dm           Am        C         E/G
Неужто мы остаемся вместе на века, на века?..
Verse:
Am                   Dm
Чтобы мечты не превращались в пену
C
Не убегали наутек
Esus4 E
Все выкипев до дна
Am                    Dm
Я назову тебя Галактикой Вселенной
C
И буду бороздить
C
От звезд до черных дыр
Esus4 E
Без устали и сна:

Вступление:

Dm               Am                   C                 G

e|------8---7--8--|--------------------|-----------------|-------------------|

B|--6-------------|--5----5---8--5-----|--5---5---8---5--|----------------5--|

G|----------------|-----------------7--|-----------------|--7-----5----7-----|

 

Dm               Am                   C                 G                   Am

e|------8---7--8--|--------------------|-----------------|-------------------|-----|

B|--6-------------|--5----5---8--5-----|--5---5---8---5--|--------5----------|-----|

G|----------------|-----------------7--|-----------------|--7----------7--5--|-----|

D|----------------|--------------------|-----------------|-------------------|--7--|

 

Куплет:

Dm

Осталось никаких сомнений

C

Похоже счастлив я

Esus4 E

И не слегка

Am               Dm

Чтобы в таком хорошем настроении

C

И голова легка

Esus4 E

Хоть ночь и коротка

 

Привев:

Dm                  Am

Все это ты! И ты - не привидение:

C           G

Фантастика, фантастика!

Dm           Am        C         E/G

Неужто мы остаемся вместе на века, на века?

 

Куплет:

Am                   Dm

Чтобы мечты не превращались в пену

C

Не убегали наутек

Esus4 E

Все выкипев до дна

 

Am                    Dm

Я назову тебя Галактикой Вселенной

C

И буду бороздить

C

От звезд до черных дыр

Esus4 E

Без устали и сна:

 

Добавить комментарий


Опрос

Ваш любимый жанр музыки?

Великолепные десятки

Проголосуйте

Вы умеете играть на гитаре?

dmoz Яндекс.Метрика