Тексты песен и аккорды

Гитара. Все для начинающих и продвинутых гитаристов.

Тексты песен и аккорды

Проигрыш:
Dm#          Am#         B           Gm#      Am#
G|------3-3------------------------------------------------|
D|----------4-------8-8---------9-9--------6-6-------8-8---|
A|-6-6------------------8------------9---------6---------8-|
E|--------------6-6---------7-7---------4-4------6-6-------|
Dm#     Am#   B            Gm#    A#
Уютное кафе на улицах сплетённой мебелью
Где красное вино из местных погребов больших Шато
Ты можешь говорить что это только глупые мечты
Но в планах у меня всё видимо немного круче,ведь.
Припев:
Dm#                            C#
Завтра в семь двадцать две, я буду в Борисполе
B
Сидеть в самолёте и думать о пилоте, чтобы
Dm#                            C#
Он хорошо взлетел и крайне удачно сел
B                                  A#
Где-нибудь в Париже, а там ещё немного и Прованс.
Бордовый горизонт, бордовое Бордо в бокале
Поверить не могу что это всё уже так близко, ведь.
Припев. X2
Взято с сайта: http://accords.com.ua/song/316428

Проигрыш:

Dm#          Am#         B           Gm#      Am#

 

G|------3-3------------------------------------------------|

D|----------4-------8-8---------9-9--------6-6-------8-8---|

A|-6-6------------------8------------9---------6---------8-|

E|--------------6-6---------7-7---------4-4------6-6-------|

 

Dm#     Am#   B            Gm#    A#

Уютное кафе на улицах сплетённой мебелью

Где красное вино из местных погребов больших Шато

Ты можешь говорить что это только глупые мечты

Но в планах у меня всё видимо немного круче,ведь.

 

Припев:

Dm#                            C#

Завтра в семь двадцать две, я буду в Борисполе

B

Сидеть в самолёте и думать о пилоте, чтобы

Dm#                            C#

Он хорошо взлетел и крайне удачно сел

B                                  A#

Где-нибудь в Париже, а там ещё немного и Прованс.

 

 

Бордовый горизонт, бордовое Бордо в бокале

Поверить не могу что это всё уже так близко, ведь.

 

Припев. X2

Источник: http://accords.com.ua/song/316428

Добавить комментарий


Опрос

Ваш любимый жанр музыки?

Великолепные десятки

Проголосуйте

Вы умеете играть на гитаре?

dmoz Яндекс.Метрика